ISO-10303-21;
HEADER;
FILE_DESCRIPTION (( 'STEP AP203' ),
    '1' );
FILE_NAME ('DR50-B128ºÍDR50-K2.STEP',
    '2023-07-21T07:25:46',
    ( 'DELL' ),
    ( '' ),
    'SwSTEP 2.0',
    'SolidWorks 2020',
    '' );
FILE_SCHEMA (( 'CONFIG_CONTROL_DESIGN' ));
ENDSEC;

DATA;
#1 = CC_DESIGN_PERSON_AND_ORGANIZATION_ASSIGNMENT ( #316, #124, ( #226 ) ) ;
#2 = AXIS2_PLACEMENT_3D ( 'NONE', #109, #13, #335 ) ;
#3 = EDGE_CURVE ( 'NONE', #265, #274, #45, .T. ) ;
#4 = APPROVAL_ROLE ( '' ) ;
#5 = CARTESIAN_POINT ( 'NONE',  ( -2.599999999999998757, 3.184081677783116712E-16, -8.673617379884035472E-16 ) ) ;
#6 = CARTESIAN_POINT ( 'NONE',  ( 25.00000000000000000, 3.061616997868383043E-15, 2.799999999999999822 ) ) ;
#7 = APPROVAL_STATUS ( 'not_yet_approved' ) ;
#8 = AXIS2_PLACEMENT_3D ( 'NONE', #222, #221, #60 ) ;
#9 = DIRECTION ( 'NONE',  ( 0.0000000000000000000, 0.0000000000000000000, -1.000000000000000000 ) ) ;
#10 = CARTESIAN_POINT ( 'NONE',  ( 0.0000000000000000000, 0.0000000000000000000, 0.2000000000000000944 ) ) ;
#11 = AXIS2_PLACEMENT_3D ( 'NONE', #348, #232, #125 ) ;
#12 = DIRECTION ( 'NONE',  ( 1.000000000000000000, 0.0000000000000000000, 0.0000000000000000000 ) ) ;
#13 = DIRECTION ( 'NONE',  ( 1.224646799147353207E-16, 1.000000000000000000, -0.0000000000000000000 ) ) ;
#14 = ADVANCED_BREP_SHAPE_REPRESENTATION ( 'DR50-B128ºÍDR50-K2', ( #77, #278 ), #344 ) ;
#15 = VERTEX_POINT ( 'NONE', #5 ) ;
#16 = AXIS2_PLACEMENT_3D ( 'NONE', #114, #224, #116 ) ;
#17 = ORIENTED_EDGE ( 'NONE', *, *, #339, .T. ) ;
#18 = CARTESIAN_POINT ( 'NONE',  ( 0.0000000000000000000, 0.0000000000000000000, 0.0000000000000000000 ) ) ;
#19 = ORIENTED_EDGE ( 'NONE', *, *, #103, .F. ) ;
#20 = VERTEX_POINT ( 'NONE', #136 ) ;
#21 = ORIENTED_EDGE ( 'NONE', *, *, #342, .F. ) ;
#22 = VERTEX_POINT ( 'NONE', #181 ) ;
#23 = VERTEX_POINT ( 'NONE', #241 ) ;
#24 = CC_DESIGN_SECURITY_CLASSIFICATION ( #126, ( #226 ) ) ;
#25 = ORIENTED_EDGE ( 'NONE', *, *, #352, .T. ) ;
#26 = PRODUCT_DEFINITION ( 'Î´Öª', '', #226, #277 ) ;
#27 = ORIENTED_EDGE ( 'NONE', *, *, #166, .F. ) ;
#28 = ORIENTED_EDGE ( 'NONE', *, *, #122, .F. ) ;
#29 = ORIENTED_EDGE ( 'NONE', *, *, #261, .F. ) ;
#30 = SECURITY_CLASSIFICATION_LEVEL ( 'unclassified' ) ;
#31 = ORIENTED_EDGE ( 'NONE', *, *, #104, .T. ) ;
#32 = EDGE_LOOP ( 'NONE', ( #275, #160, #141, #29 ) ) ;
#33 = EDGE_CURVE ( 'NONE', #57, #148, #56, .T. ) ;
#34 = ORIENTED_EDGE ( 'NONE', *, *, #261, .T. ) ;
#35 = EDGE_LOOP ( 'NONE', ( #296, #283, #139, #256 ) ) ;
#36 = EDGE_LOOP ( 'NONE', ( #257, #158, #276, #21 ) ) ;
#37 = ORIENTED_EDGE ( 'NONE', *, *, #83, .F. ) ;
#38 = ORIENTED_EDGE ( 'NONE', *, *, #233, .T. ) ;
#39 = VECTOR ( 'NONE', #341, 1000.000000000000000 ) ;
#40 = DIRECTION ( 'NONE',  ( 1.000000000000000000, 0.0000000000000000000, 0.0000000000000000000 ) ) ;
#41 = AXIS2_PLACEMENT_3D ( 'NONE', #308, #238, #54 ) ;
#42 = FACE_OUTER_BOUND ( 'NONE', #144, .T. ) ;
#43 = VERTEX_POINT ( 'NONE', #288 ) ;
#44 = VECTOR ( 'NONE', #111, 1000.000000000000000 ) ;
#45 = CIRCLE ( 'NONE', #323, 2.599999999999987654 ) ;
#46 = CIRCLE ( 'NONE', #157, 25.00000000000000000 ) ;
#47 = FACE_BOUND ( 'NONE', #59, .T. ) ;
#48 = DIRECTION ( 'NONE',  ( 0.0000000000000000000, -1.000000000000000000, 0.0000000000000000000 ) ) ;
#49 = AXIS2_PLACEMENT_3D ( 'NONE', #227, #228, #71 ) ;
#50 = VECTOR ( 'NONE', #105, 1000.000000000000000 ) ;
#51 = CLOSED_SHELL ( 'NONE', ( #282, #262, #340, #99, #131, #324, #97, #225, #118, #68 ) ) ;
#52 = CIRCLE ( 'NONE', #115, 0.2000000000000000944 ) ;
#53 = CYLINDRICAL_SURFACE ( 'NONE', #16, 25.00000000000000000 ) ;
#54 = DIRECTION ( 'NONE',  ( 1.000000000000000000, 0.0000000000000000000, 0.0000000000000000000 ) ) ;
#55 = FACE_OUTER_BOUND ( 'NONE', #36, .T. ) ;
#56 = CIRCLE ( 'NONE', #208, 25.00000000000000000 ) ;
#57 = VERTEX_POINT ( 'NONE', #213 ) ;
#58 = APPROVAL ( #7, 'Î´Ö¸¶¨' ) ;
#59 = EDGE_LOOP ( 'NONE', ( #255, #38 ) ) ;
#60 = DIRECTION ( 'NONE',  ( -1.000000000000000000, 0.0000000000000000000, 0.0000000000000000000 ) ) ;
#61 = CIRCLE ( 'NONE', #11, 2.599999999999998757 ) ;
#62 = FACE_OUTER_BOUND ( 'NONE', #174, .T. ) ;
#63 = DIRECTION ( 'NONE',  ( 0.0000000000000000000, 0.0000000000000000000, 1.000000000000000000 ) ) ;
#64 = CYLINDRICAL_SURFACE ( 'NONE', #49, 2.599999999999992983 ) ;
#65 = LOCAL_TIME ( 15, 25, 46.00000000000000000, #185 ) ;
#66 = COORDINATED_UNIVERSAL_TIME_OFFSET ( 8, 0, .AHEAD. ) ;
#67 = DIRECTION ( 'NONE',  ( 0.0000000000000000000, 0.0000000000000000000, 1.000000000000000000 ) ) ;
#68 = ADVANCED_FACE ( 'NONE', ( #299 ), #64, .F. ) ;
#69 = LOCAL_TIME ( 15, 25, 46.00000000000000000, #311 ) ;
#70 = PRODUCT_DEFINITION_SHAPE ( 'NONE', 'NONE',  #26 ) ;
#71 = DIRECTION ( 'NONE',  ( 1.000000000000000000, 0.0000000000000000000, 0.0000000000000000000 ) ) ;
#72 = FACE_OUTER_BOUND ( 'NONE', #294, .T. ) ;
#73 = CALENDAR_DATE ( 2023, 21, 7 ) ;
#74 = CIRCLE ( 'NONE', #112, 2.599999999999998757 ) ;
#75 = APPROVAL_PERSON_ORGANIZATION ( #195, #58, #329 ) ;
#76 = DATE_AND_TIME ( #73, #69 ) ;
#77 = MANIFOLD_SOLID_BREP ( '?5.2 (5.2) Ö±¾¶', #51 ) ;
#78 = LOCAL_TIME ( 15, 25, 46.00000000000000000, #198 ) ;
#79 = PERSON_AND_ORGANIZATION_ROLE ( 'creator' ) ;
#80 = CC_DESIGN_PERSON_AND_ORGANIZATION_ASSIGNMENT ( #314, #79, ( #26 ) ) ;
#81 = COORDINATED_UNIVERSAL_TIME_OFFSET ( 8, 0, .AHEAD. ) ;
#82 = AXIS2_PLACEMENT_3D ( 'NONE', #90, #243, #179 ) ;
#83 = EDGE_CURVE ( 'NONE', #23, #264, #168, .T. ) ;
#84 = CALENDAR_DATE ( 2023, 21, 7 ) ;
#85 = DATE_AND_TIME ( #189, #202 ) ;
#86 = CIRCLE ( 'NONE', #117, 24.80000000000000426 ) ;
#87 = APPLICATION_PROTOCOL_DEFINITION ( 'international standard', 'config_control_design', 1994, #231 ) ;
#88 = AXIS2_PLACEMENT_3D ( 'NONE', #10, #206, #216 ) ;
#89 = CARTESIAN_POINT ( 'NONE',  ( -2.599999999999992983, 3.184081677783109316E-16, 3.000000000000000000 ) ) ;
#90 = CARTESIAN_POINT ( 'NONE',  ( 0.0000000000000000000, 0.0000000000000000000, 3.000000000000000000 ) ) ;
#91 = APPROVAL_DATE_TIME ( #210, #58 ) ;
#92 = CARTESIAN_POINT ( 'NONE',  ( 0.0000000000000000000, 0.0000000000000000000, 3.000000000000000000 ) ) ;
#93 = PLANE ( 'NONE',  #239 ) ;
#94 = CARTESIAN_POINT ( 'NONE',  ( 25.00000000000000000, 3.061616997868383043E-15, 0.2000000000000000944 ) ) ;
#95 = CARTESIAN_POINT ( 'NONE',  ( 25.00000000000000000, 3.061616997868383043E-15, 3.000000000000000000 ) ) ;
#96 = APPROVAL ( #289, 'Î´Ö¸¶¨' ) ;
#97 = ADVANCED_FACE ( 'NONE', ( #47, #42 ), #321, .F. ) ;
#98 = DIRECTION ( 'NONE',  ( 1.000000000000000000, 0.0000000000000000000, 0.0000000000000000000 ) ) ;
#99 = ADVANCED_FACE ( 'NONE', ( #55 ), #53, .T. ) ;
#100 = AXIS2_PLACEMENT_3D ( 'NONE', #336, #353, #196 ) ;
#101 = DIRECTION ( 'NONE',  ( 1.000000000000000000, 0.0000000000000000000, -0.0000000000000000000 ) ) ;
#102 = UNCERTAINTY_MEASURE_WITH_UNIT (LENGTH_MEASURE( 1.000000000000000082E-05 ), #217, 'distance_accuracy_value', 'NONE');
#103 = EDGE_CURVE ( 'NONE', #281, #274, #177, .T. ) ;
#104 = EDGE_CURVE ( 'NONE', #43, #57, #175, .T. ) ;
#105 = DIRECTION ( 'NONE',  ( -0.0000000000000000000, -0.0000000000000000000, 1.000000000000000000 ) ) ;
#106 = CC_DESIGN_APPROVAL ( #96, ( #226 ) ) ;
#107 = EDGE_CURVE ( 'NONE', #264, #23, #46, .T. ) ;
#108 = DIRECTION ( 'NONE',  ( 1.000000000000000000, 0.0000000000000000000, 0.0000000000000000000 ) ) ;
#109 = CARTESIAN_POINT ( 'NONE',  ( -24.80000000000000426, 3.037124061885436328E-15, 2.799999999999999822 ) ) ;
#110 = CARTESIAN_POINT ( 'NONE',  ( 0.0000000000000000000, 0.0000000000000000000, 0.2000000000000000944 ) ) ;
#111 = DIRECTION ( 'NONE',  ( -0.0000000000000000000, -0.0000000000000000000, -1.000000000000000000 ) ) ;
#112 = AXIS2_PLACEMENT_3D ( 'NONE', #150, #333, #108 ) ;
#113 = AXIS2_PLACEMENT_3D ( 'NONE', #18, #67, #101 ) ;
#114 = CARTESIAN_POINT ( 'NONE',  ( 0.0000000000000000000, 0.0000000000000000000, 3.000000000000000000 ) ) ;
#115 = AXIS2_PLACEMENT_3D ( 'NONE', #312, #48, #350 ) ;
#116 = DIRECTION ( 'NONE',  ( -1.000000000000000000, 0.0000000000000000000, 0.0000000000000000000 ) ) ;
#117 = AXIS2_PLACEMENT_3D ( 'NONE', #199, #154, #203 ) ;
#118 = ADVANCED_FACE ( 'NONE', ( #173 ), #169, .T. ) ;
#119 = DIRECTION ( 'NONE',  ( -0.0000000000000000000, -0.0000000000000000000, 1.000000000000000000 ) ) ;
#120 = DIRECTION ( 'NONE',  ( 1.000000000000000000, 0.0000000000000000000, 0.0000000000000000000 ) ) ;
#121 = APPLICATION_PROTOCOL_DEFINITION ( 'international standard', 'config_control_design', 1994, #332 ) ;
#122 = EDGE_CURVE ( 'NONE', #43, #22, #295, .T. ) ;
#123 = CARTESIAN_POINT ( 'NONE',  ( 0.0000000000000000000, 0.0000000000000000000, 2.799999999999999822 ) ) ;
#124 = PERSON_AND_ORGANIZATION_ROLE ( 'design_supplier' ) ;
#125 = DIRECTION ( 'NONE',  ( 1.000000000000000000, 0.0000000000000000000, 0.0000000000000000000 ) ) ;
#126 = SECURITY_CLASSIFICATION ( '', '', #30 ) ;
#127 = DIRECTION ( 'NONE',  ( 1.000000000000000000, 0.0000000000000000000, -0.0000000000000000000 ) ) ;
#128 = DIRECTION ( 'NONE',  ( 0.0000000000000000000, 0.0000000000000000000, 1.000000000000000000 ) ) ;
#129 = PRODUCT ( 'DR50-B128ºÍDR50-K2', 'DR50-B128ºÍDR50-K2', '', ( #234 ) ) ;
#130 = DIRECTION ( 'NONE',  ( -1.000000000000000000, 1.224646799147353947E-16, 0.0000000000000000000 ) ) ;
#131 = ADVANCED_FACE ( 'NONE', ( #300 ), #171, .T. ) ;
#132 = CARTESIAN_POINT ( 'NONE',  ( -25.00000000000000000, 0.0000000000000000000, 3.000000000000000000 ) ) ;
#133 = DIRECTION ( 'NONE',  ( -0.0000000000000000000, -0.0000000000000000000, -1.000000000000000000 ) ) ;
#134 = CARTESIAN_POINT ( 'NONE',  ( 0.0000000000000000000, 0.0000000000000000000, 3.000000000000001332 ) ) ;
#135 = EDGE_CURVE ( 'NONE', #23, #280, #170, .T. ) ;
#136 = CARTESIAN_POINT ( 'NONE',  ( 24.80000000000000426, 0.0000000000000000000, 3.000000000000000000 ) ) ;
#137 = AXIS2_PLACEMENT_3D ( 'NONE', #252, #301, #331 ) ;
#138 = DIRECTION ( 'NONE',  ( 1.000000000000000000, 0.0000000000000000000, 0.0000000000000000000 ) ) ;
#139 = ORIENTED_EDGE ( 'NONE', *, *, #103, .T. ) ;
#140 = ORIENTED_EDGE ( 'NONE', *, *, #3, .T. ) ;
#141 = ORIENTED_EDGE ( 'NONE', *, *, #223, .T. ) ;
#142 = ORIENTED_EDGE ( 'NONE', *, *, #33, .F. ) ;
#143 = EDGE_LOOP ( 'NONE', ( #37, #266, #147, #149 ) ) ;
#144 = EDGE_LOOP ( 'NONE', ( #17, #258 ) ) ;
#145 = CARTESIAN_POINT ( 'NONE',  ( -24.80000000000000426, 3.049370529876909686E-15, 3.000000000000000000 ) ) ;
#146 = EDGE_LOOP ( 'NONE', ( #273, #152, #161, #142 ) ) ;
#147 = ORIENTED_EDGE ( 'NONE', *, *, #352, .F. ) ;
#148 = VERTEX_POINT ( 'NONE', #94 ) ;
#149 = ORIENTED_EDGE ( 'NONE', *, *, #223, .F. ) ;
#150 = CARTESIAN_POINT ( 'NONE',  ( 0.0000000000000000000, 0.0000000000000000000, -8.673617379884035472E-16 ) ) ;
#151 = ORIENTED_EDGE ( 'NONE', *, *, #107, .T. ) ;
#152 = ORIENTED_EDGE ( 'NONE', *, *, #339, .F. ) ;
#153 = ORIENTED_EDGE ( 'NONE', *, *, #33, .T. ) ;
#154 = DIRECTION ( 'NONE',  ( -0.0000000000000000000, -0.0000000000000000000, -1.000000000000000000 ) ) ;
#155 = ORIENTED_EDGE ( 'NONE', *, *, #271, .T. ) ;
#156 = ORIENTED_EDGE ( 'NONE', *, *, #233, .F. ) ;
#157 = AXIS2_PLACEMENT_3D ( 'NONE', #123, #330, #40 ) ;
#158 = ORIENTED_EDGE ( 'NONE', *, *, #166, .T. ) ;
#159 = CARTESIAN_POINT ( 'NONE',  ( -24.80000000000000426, 3.037124061885436328E-15, 0.2000000000000000944 ) ) ;
#160 = ORIENTED_EDGE ( 'NONE', *, *, #107, .F. ) ;
#161 = ORIENTED_EDGE ( 'NONE', *, *, #188, .T. ) ;
#162 = LINE ( 'NONE', #95, #44 ) ;
#163 = DIRECTION ( 'NONE',  ( 1.000000000000000000, 0.0000000000000000000, 0.0000000000000000000 ) ) ;
#164 = CIRCLE ( 'NONE', #88, 25.00000000000000000 ) ;
#165 = TOROIDAL_SURFACE ( 'NONE', #334, 24.80000000000000426, 0.2000000000000000111 ) ;
#166 = EDGE_CURVE ( 'NONE', #264, #148, #162, .T. ) ;
#167 = CIRCLE ( 'NONE', #100, 24.80000000000000426 ) ;
#168 = CIRCLE ( 'NONE', #245, 25.00000000000000000 ) ;
#169 = TOROIDAL_SURFACE ( 'NONE', #41, 24.80000000000000426, 0.2000000000000000111 ) ;
#170 = CIRCLE ( 'NONE', #2, 0.1999999999999987899 ) ;
#171 = CYLINDRICAL_SURFACE ( 'NONE', #8, 25.00000000000000000 ) ;
#172 = CARTESIAN_POINT ( 'NONE',  ( 0.0000000000000000000, 0.0000000000000000000, 3.000000000000001332 ) ) ;
#173 = FACE_OUTER_BOUND ( 'NONE', #32, .T. ) ;
#174 = EDGE_LOOP ( 'NONE', ( #156, #155, #140, #19 ) ) ;
#175 = CIRCLE ( 'NONE', #237, 0.1999999999999987899 ) ;
#176 = EDGE_LOOP ( 'NONE', ( #263, #260 ) ) ;
#177 = LINE ( 'NONE', #279, #39 ) ;
#178 = CIRCLE ( 'NONE', #303, 0.2000000000000000111 ) ;
#179 = DIRECTION ( 'NONE',  ( 1.000000000000000000, 0.0000000000000000000, 0.0000000000000000000 ) ) ;
#180 = FACE_OUTER_BOUND ( 'NONE', #146, .T. ) ;
#181 = CARTESIAN_POINT ( 'NONE',  ( 24.80000000000000426, 0.0000000000000000000, 0.0000000000000000000 ) ) ;
#182 = PERSON_AND_ORGANIZATION ( #315, #201 ) ;
#183 = TOROIDAL_SURFACE ( 'NONE', #187, 24.80000000000000426, 0.2000000000000000111 ) ;
#184 = LINE ( 'NONE', #132, #200 ) ;
#185 = COORDINATED_UNIVERSAL_TIME_OFFSET ( 8, 0, .AHEAD. ) ;
#186 = DIRECTION ( 'NONE',  ( 0.0000000000000000000, 0.0000000000000000000, 1.000000000000000000 ) ) ;
#187 = AXIS2_PLACEMENT_3D ( 'NONE', #240, #63, #98 ) ;
#188 = EDGE_CURVE ( 'NONE', #22, #148, #178, .T. ) ;
#189 = CALENDAR_DATE ( 2023, 21, 7 ) ;
#190 = DATE_AND_TIME ( #307, #65 ) ;
#191 = PERSON_AND_ORGANIZATION ( #315, #201 ) ;
#192 = DIRECTION ( 'NONE',  ( 1.000000000000000000, 0.0000000000000000000, 0.0000000000000000000 ) ) ;
#193 = PERSON_AND_ORGANIZATION ( #315, #201 ) ;
#194 = DATE_AND_TIME ( #84, #319 ) ;
#195 = PERSON_AND_ORGANIZATION ( #315, #201 ) ;
#196 = DIRECTION ( 'NONE',  ( 1.000000000000000000, 0.0000000000000000000, 0.0000000000000000000 ) ) ;
#197 = CC_DESIGN_PERSON_AND_ORGANIZATION_ASSIGNMENT ( #191, #302, ( #226 ) ) ;
#198 = COORDINATED_UNIVERSAL_TIME_OFFSET ( 8, 0, .AHEAD. ) ;
#199 = CARTESIAN_POINT ( 'NONE',  ( 0.0000000000000000000, 0.0000000000000000000, 0.0000000000000000000 ) ) ;
#200 = VECTOR ( 'NONE', #133, 1000.000000000000000 ) ;
#201 = ORGANIZATION ( 'Î´Ö¸¶¨', 'Î´Ö¸¶¨', '' ) ;
#202 = LOCAL_TIME ( 15, 25, 46.00000000000000000, #66 ) ;
#203 = DIRECTION ( 'NONE',  ( 1.000000000000000000, 0.0000000000000000000, 0.0000000000000000000 ) ) ;
#204 = CARTESIAN_POINT ( 'NONE',  ( 0.0000000000000000000, 0.0000000000000000000, 0.0000000000000000000 ) ) ;
#205 = EDGE_CURVE ( 'NONE', #148, #57, #164, .T. ) ;
#206 = DIRECTION ( 'NONE',  ( 0.0000000000000000000, 0.0000000000000000000, 1.000000000000000000 ) ) ;
#207 = SHAPE_DEFINITION_REPRESENTATION ( #70, #14 ) ;
#208 = AXIS2_PLACEMENT_3D ( 'NONE', #246, #186, #192 ) ;
#209 = CC_DESIGN_PERSON_AND_ORGANIZATION_ASSIGNMENT ( #193, #293, ( #126 ) ) ;
#210 = DATE_AND_TIME ( #327, #78 ) ;
#211 = AXIS2_PLACEMENT_3D ( 'NONE', #110, #128, #230 ) ;
#212 = CARTESIAN_POINT ( 'NONE',  ( 0.0000000000000000000, 0.0000000000000000000, 0.0000000000000000000 ) ) ;
#213 = CARTESIAN_POINT ( 'NONE',  ( -25.00000000000000000, 0.0000000000000000000, 0.2000000000000000944 ) ) ;
#214 = DIRECTION ( 'NONE',  ( 1.000000000000000000, 0.0000000000000000000, 0.0000000000000000000 ) ) ;
#215 =( NAMED_UNIT ( * ) PLANE_ANGLE_UNIT ( ) SI_UNIT ( $, .RADIAN. ) );
#216 = DIRECTION ( 'NONE',  ( 1.000000000000000000, 0.0000000000000000000, 0.0000000000000000000 ) ) ;
#217 =( LENGTH_UNIT ( ) NAMED_UNIT ( * ) SI_UNIT ( .MILLI., .METRE. ) );
#218 = CC_DESIGN_DATE_AND_TIME_ASSIGNMENT ( #76, #349, ( #126 ) ) ;
#219 = CARTESIAN_POINT ( 'NONE',  ( 2.599999999999998757, 0.0000000000000000000, -8.673617379884035472E-16 ) ) ;
#220 = AXIS2_PLACEMENT_3D ( 'NONE', #172, #270, #338 ) ;
#221 = DIRECTION ( 'NONE',  ( -0.0000000000000000000, -0.0000000000000000000, -1.000000000000000000 ) ) ;
#222 = CARTESIAN_POINT ( 'NONE',  ( 0.0000000000000000000, 0.0000000000000000000, 3.000000000000000000 ) ) ;
#223 = EDGE_CURVE ( 'NONE', #264, #20, #52, .T. ) ;
#224 = DIRECTION ( 'NONE',  ( -0.0000000000000000000, -0.0000000000000000000, -1.000000000000000000 ) ) ;
#225 = ADVANCED_FACE ( 'NONE', ( #180 ), #291, .T. ) ;
#226 = PRODUCT_DEFINITION_FORMATION_WITH_SPECIFIED_SOURCE ( 'ÈÎºÎ', '', #129, .NOT_KNOWN. ) ;
#227 = CARTESIAN_POINT ( 'NONE',  ( 0.0000000000000000000, 0.0000000000000000000, 3.000000000000000000 ) ) ;
#228 = DIRECTION ( 'NONE',  ( -0.0000000000000000000, -0.0000000000000000000, 1.000000000000000000 ) ) ;
#229 = CC_DESIGN_APPROVAL ( #58, ( #126 ) ) ;
#230 = DIRECTION ( 'NONE',  ( 1.000000000000000000, 0.0000000000000000000, 0.0000000000000000000 ) ) ;
#231 = APPLICATION_CONTEXT ( 'configuration controlled 3d designs of mechanical parts and assemblies' ) ;
#232 = DIRECTION ( 'NONE',  ( -0.0000000000000000000, -0.0000000000000000000, 1.000000000000000000 ) ) ;
#233 = EDGE_CURVE ( 'NONE', #15, #281, #61, .T. ) ;
#234 = MECHANICAL_CONTEXT ( 'NONE', #231, 'mechanical' ) ;
#235 = CARTESIAN_POINT ( 'NONE',  ( -2.599999999999987654, 3.184081677783105865E-16, 3.000000000000001332 ) ) ;
#236 = DIRECTION ( 'NONE',  ( 1.224646799147353207E-16, 1.000000000000000000, -0.0000000000000000000 ) ) ;
#237 = AXIS2_PLACEMENT_3D ( 'NONE', #159, #236, #130 ) ;
#238 = DIRECTION ( 'NONE',  ( 0.0000000000000000000, 0.0000000000000000000, 1.000000000000000000 ) ) ;
#239 = AXIS2_PLACEMENT_3D ( 'NONE', #92, #305, #127 ) ;
#240 = CARTESIAN_POINT ( 'NONE',  ( 0.0000000000000000000, 0.0000000000000000000, 0.2000000000000000944 ) ) ;
#241 = CARTESIAN_POINT ( 'NONE',  ( -25.00000000000000000, 0.0000000000000000000, 2.799999999999999822 ) ) ;
#242 = AXIS2_PLACEMENT_3D ( 'NONE', #204, #254, #163 ) ;
#243 = DIRECTION ( 'NONE',  ( 0.0000000000000000000, 0.0000000000000000000, 1.000000000000000000 ) ) ;
#244 = DATE_TIME_ROLE ( 'creation_date' ) ;
#245 = AXIS2_PLACEMENT_3D ( 'NONE', #326, #345, #214 ) ;
#246 = CARTESIAN_POINT ( 'NONE',  ( 0.0000000000000000000, 0.0000000000000000000, 0.2000000000000000944 ) ) ;
#247 = CARTESIAN_POINT ( 'NONE',  ( 0.0000000000000000000, 0.0000000000000000000, 2.799999999999999822 ) ) ;
#248 =( NAMED_UNIT ( * ) SI_UNIT ( $, .STERADIAN. ) SOLID_ANGLE_UNIT ( ) );
#249 = PRODUCT_RELATED_PRODUCT_CATEGORY ( 'detail', '', ( #129 ) ) ;
#250 = CARTESIAN_POINT ( 'NONE',  ( 2.599999999999987654, 0.0000000000000000000, 3.000000000000001332 ) ) ;
#251 = PERSON_AND_ORGANIZATION_ROLE ( 'design_owner' ) ;
#252 = CARTESIAN_POINT ( 'NONE',  ( 0.0000000000000000000, 0.0000000000000000000, 3.000000000000000000 ) ) ;
#253 = ORIENTED_EDGE ( 'NONE', *, *, #342, .T. ) ;
#254 = DIRECTION ( 'NONE',  ( -0.0000000000000000000, -0.0000000000000000000, -1.000000000000000000 ) ) ;
#255 = ORIENTED_EDGE ( 'NONE', *, *, #328, .T. ) ;
#256 = ORIENTED_EDGE ( 'NONE', *, *, #346, .T. ) ;
#257 = ORIENTED_EDGE ( 'NONE', *, *, #83, .T. ) ;
#258 = ORIENTED_EDGE ( 'NONE', *, *, #122, .T. ) ;
#259 = DIRECTION ( 'NONE',  ( 0.0000000000000000000, -1.000000000000000000, 0.0000000000000000000 ) ) ;
#260 = ORIENTED_EDGE ( 'NONE', *, *, #3, .F. ) ;
#261 = EDGE_CURVE ( 'NONE', #280, #20, #167, .T. ) ;
#262 = ADVANCED_FACE ( 'NONE', ( #284 ), #165, .T. ) ;
#263 = ORIENTED_EDGE ( 'NONE', *, *, #346, .F. ) ;
#264 = VERTEX_POINT ( 'NONE', #6 ) ;
#265 = VERTEX_POINT ( 'NONE', #235 ) ;
#266 = ORIENTED_EDGE ( 'NONE', *, *, #135, .T. ) ;
#267 = ORIENTED_EDGE ( 'NONE', *, *, #188, .F. ) ;
#268 = CC_DESIGN_DATE_AND_TIME_ASSIGNMENT ( #85, #244, ( #26 ) ) ;
#269 = CC_DESIGN_APPROVAL ( #347, ( #26 ) ) ;
#270 = DIRECTION ( 'NONE',  ( -0.0000000000000000000, -0.0000000000000000000, 1.000000000000000000 ) ) ;
#271 = EDGE_CURVE ( 'NONE', #15, #265, #286, .T. ) ;
#272 = ORIENTED_EDGE ( 'NONE', *, *, #205, .F. ) ;
#273 = ORIENTED_EDGE ( 'NONE', *, *, #104, .F. ) ;
#274 = VERTEX_POINT ( 'NONE', #250 ) ;
#275 = ORIENTED_EDGE ( 'NONE', *, *, #135, .F. ) ;
#276 = ORIENTED_EDGE ( 'NONE', *, *, #205, .T. ) ;
#277 = DESIGN_CONTEXT ( 'detailed design', #332, 'design' ) ;
#278 = AXIS2_PLACEMENT_3D ( 'NONE', #212, #325, #120 ) ;
#279 = CARTESIAN_POINT ( 'NONE',  ( 2.599999999999992983, 0.0000000000000000000, 3.000000000000000000 ) ) ;
#280 = VERTEX_POINT ( 'NONE', #145 ) ;
#281 = VERTEX_POINT ( 'NONE', #219 ) ;
#282 = ADVANCED_FACE ( 'NONE', ( #62 ), #304, .F. ) ;
#283 = ORIENTED_EDGE ( 'NONE', *, *, #328, .F. ) ;
#284 = FACE_OUTER_BOUND ( 'NONE', #143, .T. ) ;
#285 = EDGE_LOOP ( 'NONE', ( #25, #34 ) ) ;
#286 = LINE ( 'NONE', #89, #50 ) ;
#287 = FACE_BOUND ( 'NONE', #176, .T. ) ;
#288 = CARTESIAN_POINT ( 'NONE',  ( -24.80000000000000426, 3.049370529876909686E-15, 0.0000000000000000000 ) ) ;
#289 = APPROVAL_STATUS ( 'not_yet_approved' ) ;
#290 = EDGE_LOOP ( 'NONE', ( #27, #151, #253, #153 ) ) ;
#291 = TOROIDAL_SURFACE ( 'NONE', #211, 24.80000000000000426, 0.2000000000000000111 ) ;
#292 = FACE_OUTER_BOUND ( 'NONE', #285, .T. ) ;
#293 = PERSON_AND_ORGANIZATION_ROLE ( 'classification_officer' ) ;
#294 = EDGE_LOOP ( 'NONE', ( #28, #31, #272, #267 ) ) ;
#295 = CIRCLE ( 'NONE', #242, 24.80000000000000426 ) ;
#296 = ORIENTED_EDGE ( 'NONE', *, *, #271, .F. ) ;
#297 = DIRECTION ( 'NONE',  ( 0.0000000000000000000, 0.0000000000000000000, 1.000000000000000000 ) ) ;
#298 = APPROVAL_STATUS ( 'not_yet_approved' ) ;
#299 = FACE_OUTER_BOUND ( 'NONE', #35, .T. ) ;
#300 = FACE_OUTER_BOUND ( 'NONE', #290, .T. ) ;
#301 = DIRECTION ( 'NONE',  ( -0.0000000000000000000, -0.0000000000000000000, 1.000000000000000000 ) ) ;
#302 = PERSON_AND_ORGANIZATION_ROLE ( 'creator' ) ;
#303 = AXIS2_PLACEMENT_3D ( 'NONE', #351, #259, #9 ) ;
#304 = CYLINDRICAL_SURFACE ( 'NONE', #137, 2.599999999999992983 ) ;
#305 = DIRECTION ( 'NONE',  ( 0.0000000000000000000, 0.0000000000000000000, 1.000000000000000000 ) ) ;
#306 = CIRCLE ( 'NONE', #82, 24.80000000000000426 ) ;
#307 = CALENDAR_DATE ( 2023, 21, 7 ) ;
#308 = CARTESIAN_POINT ( 'NONE',  ( 0.0000000000000000000, 0.0000000000000000000, 2.799999999999999822 ) ) ;
#309 = APPROVAL_PERSON_ORGANIZATION ( #182, #96, #4 ) ;
#310 = APPROVAL_DATE_TIME ( #190, #96 ) ;
#311 = COORDINATED_UNIVERSAL_TIME_OFFSET ( 8, 0, .AHEAD. ) ;
#312 = CARTESIAN_POINT ( 'NONE',  ( 24.80000000000000426, 0.0000000000000000000, 2.799999999999999822 ) ) ;
#313 = PERSON_AND_ORGANIZATION ( #315, #201 ) ;
#314 = PERSON_AND_ORGANIZATION ( #315, #201 ) ;
#315 = PERSON ( 'Î´Ö¸¶¨', 'Î´Ö¸¶¨', 'Î´Ö¸¶¨', ('Î´Ö¸¶¨'), ('Î´Ö¸¶¨'), ('Î´Ö¸¶¨') ) ;
#316 = PERSON_AND_ORGANIZATION ( #315, #201 ) ;
#317 = APPROVAL_PERSON_ORGANIZATION ( #320, #347, #343 ) ;
#318 = CIRCLE ( 'NONE', #220, 2.599999999999987654 ) ;
#319 = LOCAL_TIME ( 15, 25, 46.00000000000000000, #81 ) ;
#320 = PERSON_AND_ORGANIZATION ( #315, #201 ) ;
#321 = PLANE ( 'NONE',  #113 ) ;
#322 = APPROVAL_DATE_TIME ( #194, #347 ) ;
#323 = AXIS2_PLACEMENT_3D ( 'NONE', #134, #119, #138 ) ;
#324 = ADVANCED_FACE ( 'NONE', ( #287, #292 ), #93, .T. ) ;
#325 = DIRECTION ( 'NONE',  ( 0.0000000000000000000, 0.0000000000000000000, 1.000000000000000000 ) ) ;
#326 = CARTESIAN_POINT ( 'NONE',  ( 0.0000000000000000000, 0.0000000000000000000, 2.799999999999999822 ) ) ;
#327 = CALENDAR_DATE ( 2023, 21, 7 ) ;
#328 = EDGE_CURVE ( 'NONE', #281, #15, #74, .T. ) ;
#329 = APPROVAL_ROLE ( '' ) ;
#330 = DIRECTION ( 'NONE',  ( -0.0000000000000000000, -0.0000000000000000000, -1.000000000000000000 ) ) ;
#331 = DIRECTION ( 'NONE',  ( 1.000000000000000000, 0.0000000000000000000, 0.0000000000000000000 ) ) ;
#332 = APPLICATION_CONTEXT ( 'configuration controlled 3d designs of mechanical parts and assemblies' ) ;
#333 = DIRECTION ( 'NONE',  ( -0.0000000000000000000, -0.0000000000000000000, 1.000000000000000000 ) ) ;
#334 = AXIS2_PLACEMENT_3D ( 'NONE', #247, #297, #12 ) ;
#335 = DIRECTION ( 'NONE',  ( -1.000000000000000000, 1.224646799147353947E-16, 0.0000000000000000000 ) ) ;
#336 = CARTESIAN_POINT ( 'NONE',  ( 0.0000000000000000000, 0.0000000000000000000, 3.000000000000000000 ) ) ;
#337 = CC_DESIGN_PERSON_AND_ORGANIZATION_ASSIGNMENT ( #313, #251, ( #129 ) ) ;
#338 = DIRECTION ( 'NONE',  ( 1.000000000000000000, 0.0000000000000000000, 0.0000000000000000000 ) ) ;
#339 = EDGE_CURVE ( 'NONE', #22, #43, #86, .T. ) ;
#340 = ADVANCED_FACE ( 'NONE', ( #72 ), #183, .T. ) ;
#341 = DIRECTION ( 'NONE',  ( -0.0000000000000000000, -0.0000000000000000000, 1.000000000000000000 ) ) ;
#342 = EDGE_CURVE ( 'NONE', #23, #57, #184, .T. ) ;
#343 = APPROVAL_ROLE ( '' ) ;
#344 =( GEOMETRIC_REPRESENTATION_CONTEXT ( 3 ) GLOBAL_UNCERTAINTY_ASSIGNED_CONTEXT ( ( #102 ) ) GLOBAL_UNIT_ASSIGNED_CONTEXT ( ( #217, #215, #248 ) ) REPRESENTATION_CONTEXT ( 'NONE', 'WORKASPACE' ) );
#345 = DIRECTION ( 'NONE',  ( -0.0000000000000000000, -0.0000000000000000000, -1.000000000000000000 ) ) ;
#346 = EDGE_CURVE ( 'NONE', #274, #265, #318, .T. ) ;
#347 = APPROVAL ( #298, 'Î´Ö¸¶¨' ) ;
#348 = CARTESIAN_POINT ( 'NONE',  ( 0.0000000000000000000, 0.0000000000000000000, -8.673617379884035472E-16 ) ) ;
#349 = DATE_TIME_ROLE ( 'classification_date' ) ;
#350 = DIRECTION ( 'NONE',  ( 0.0000000000000000000, 0.0000000000000000000, -1.000000000000000000 ) ) ;
#351 = CARTESIAN_POINT ( 'NONE',  ( 24.80000000000000426, 0.0000000000000000000, 0.2000000000000000944 ) ) ;
#352 = EDGE_CURVE ( 'NONE', #20, #280, #306, .T. ) ;
#353 = DIRECTION ( 'NONE',  ( 0.0000000000000000000, 0.0000000000000000000, 1.000000000000000000 ) ) ;
ENDSEC;
END-ISO-10303-21;
